Pretty Woman

Roy Orbison

Page
124
Key
A Major
Tempo
120
Year
1964
E7 A F#m D E Dm G C Am
E7 A F#m D E Dm G C Am
Intro
|---------0---------------0----| D
|-------2---------------2------| A
|-0-0-4-----------0-0-4--------| E
Riff 1
E7
|---------0-4-2-0----------0-4-2-0----------0-4-2-0----------0-4-2-0-| D
|-------2---------------2----------------2----------------2----------| A
|-0-0-4-----------0-0-4------------0-0-4------------0-0-4------------| E
Verse 1
Pretty
A
woman, walking
F#m
down the street
Pretty
A
woman, the kind I
F#m
like to meet
Pretty
D
woman
I don't be-
E
lieve you
You're not the truth
No one can look as good as you
Riff 2
E7
|---------0-4-2-0----------0-4-2-0----------0-4-2-0----------0-4-2-0-| D
|-------2---------------2----------------2----------------2----------| A
|-0-0-4-----------0-0-4------------0-0-4------------0-0-4------------| E
Verse 2
Pretty
A
woman, won't you
F#m
pardon me
Pretty
A
woman, I couldn't
F#m
help but see
Pretty
D
woman
You look so
E
lovely as can be
Are you lonely just like me
Riff 3
E7
|---------0-4-2-0----------0-4-2-0----------0-4-2-0----------0-4-2-0-| D
|-------2---------------2----------------2----------------2----------| A
|-0-0-4-----------0-0-4------------0-0-4------------0-0-4------------| E
Bridge 1
Dm
Pretty woman,
G
stop awhile
C
Pretty woman,
Am
talk awhile
Dm
Pretty woman,
G
give your smile to
C
me
C
Dm
Pretty woman,
G
yeah yeah yeah
C
Pretty woman,
Am
look my way
Dm
Pretty woman,
G
say you'll stay with
C
me
A
Cause I
F#m
need you,
D
I'll treat you
E
right
A
Come with me
F#m
baby,
D
Be mine to-
E7
night
Riff 4
|---------0-4-2-0----------0-4-2-0----------0-4-2-0----------0-4-2-0-| D
|-------2---------------2----------------2----------------2----------| A
|-0-0-4-----------0-0-4------------0-0-4------------0-0-4------------| E
Verse 3
Pretty
A
woman, don't
F#m
walk on by
Pretty
A
woman, don't
F#m
make me cry
Pretty
D
woman
Don't
E
walk away hey
E
ok
Breakdown
E
If that's the way it must be, okay
E
I guess I'll go on home, It's late
E
There'll be tomorrow night but wait
Break
what do I see
|---------0---------------0----| D
|-------2---------------2------| A
|-0-0-4-----------0-0-4--------| E
E7
Is she walking back to me yeah
she's walking back to me
|---------0-4-2-0----------0-4-2-0----------0-4-2-0----------0-4-2-0-| D
|-------2---------------2----------------2----------------2----------| A
|-0-0-4-----------0-0-4------------0-0-4------------0-0-4------------| E
Outro
E7
Oh, ho, pretty
A
wo-
A
man